0
SECTION
2
HEADER
9
$INSUNITS
70
1
9
$ACADVER
1
AC1014
9
$HANDSEED
5
FFFF
0
ENDSEC
0
SECTION
2
TABLES
0
TABLE
2
VPORT
5
8
100
AcDbSymbolTable
0
ENDTAB
0
TABLE
2
LTYPE
5
5
100
AcDbSymbolTable
0
LTYPE
5
14
100
AcDbSymbolTableRecord
100
AcDbLinetypeTableRecord
2
BYBLOCK
70
0
0
LTYPE
5
15
100
AcDbSymbolTableRecord
100
AcDbLinetypeTableRecord
2
BYLAYER
70
0
0
ENDTAB
0
TABLE
2
LAYER
5
2
100
AcDbSymbolTable
70
2
0
LAYER
5
50
100
AcDbSymbolTableRecord
100
AcDbLayerTableRecord
2
0
70
0
6
CONTINUOUS
0
ENDTAB
0
TABLE
2
STYLE
5
3
100
AcDbSymbolTable
70
1
0
STYLE
5
11
100
AcDbSymbolTableRecord
100
AcDbTextStyleTableRecord
2
STANDARD
70
0
0
ENDTAB
0
TABLE
2
VIEW
5
6
100
AcDbSymbolTable
70
0
0
ENDTAB
0
TABLE
2
UCS
5
7
100
AcDbSymbolTable
70
0
0
ENDTAB
0
TABLE
2
APPID
5
9
100
AcDbSymbolTable
70
2
0
APPID
5
12
100
AcDbSymbolTableRecord
100
AcDbRegAppTableRecord
2
ACAD
70
0
0
ENDTAB
0
TABLE
2
DIMSTYLE
5
A
100
AcDbSymbolTable
70
1
0
ENDTAB
0
TABLE
2
BLOCK_RECORD
5
1
100
AcDbSymbolTable
70
1
0
BLOCK_RECORD
5
1F
100
AcDbSymbolTableRecord
100
AcDbBlockTableRecord
2
*MODEL_SPACE
0
BLOCK_RECORD
5
1B
100
AcDbSymbolTableRecord
100
AcDbBlockTableRecord
2
*PAPER_SPACE
0
ENDTAB
0
ENDSEC
0
SECTION
2
BLOCKS
0
BLOCK
5
20
100
AcDbEntity
100
AcDbBlockBegin
2
*MODEL_SPACE
0
ENDBLK
5
21
100
AcDbEntity
100
AcDbBlockEnd
0
BLOCK
5
1C
100
AcDbEntity
100
AcDbBlockBegin
2
*PAPER_SPACE
0
ENDBLK
5
1D
100
AcDbEntity
100
AcDbBlockEnd
0
ENDSEC
0
SECTION
2
ENTITIES
0
CIRCLE
5
100
100
AcDbEntity
8
0
100
AcDbCircle
10
291.16732283464569
20
-30.379921259842519
30
0
40
0.094999999999998183
210
0
220
0
230
1
0
CIRCLE
5
101
100
AcDbEntity
8
0
100
AcDbCircle
10
291.16732283464569
20
-27.939921259842521
30
0
40
0.095000000000008925
210
0
220
0
230
1
0
CIRCLE
5
102
100
AcDbEntity
8
0
100
AcDbCircle
10
288.72732283464569
20
-27.939921259842521
30
0
40
0.094999999999993756
210
0
220
0
230
1
0
CIRCLE
5
103
100
AcDbEntity
8
0
100
AcDbCircle
10
288.72732283464569
20
-30.379921259842519
30
0
40
0.094999999999993145
210
0
220
0
230
1
0
LWPOLYLINE
5
104
100
AcDbEntity
8
0
100
AcDbPolyline
90
22
70
1
43
0.0
10
287.44632283464568
20
-28.34742125984252
10
287.44632283464568
20
-29.97242125984252
10
287.44632283464568
20
-29.989578547367909
42
0.19891236737951939
10
287.50490147840839
20
-30.130999903605225
10
287.76274419088298
20
-30.38884261607982
42
-0.19891236737954501
10
287.82132283464568
20
-30.530263972317119
10
287.82132283464568
20
-31.331496062992116
42
0.41421356237307044
10
288.02132283464567
20
-31.531496062992112
10
291.3514788086573
20
-31.531496062992112
42
0.41421356237307044
10
291.55147880865729
20
-31.331496062992116
10
291.55147880865729
20
-31.239338775466727
42
-0.19891236737959767
10
291.61005745241999
20
-31.097917419229422
10
291.99290016489465
20
-30.71507470675477
42
0.1989123673799858
10
292.05147880865729
20
-30.573653350517478
10
292.05147880865729
20
-25.418996062992129
42
0.41421356237307044
10
291.8514788086573
20
-25.218996062992133
10
288.02132283464567
20
-25.218996062992133
42
0.41421356237307044
10
287.82132283464568
20
-25.418996062992129
10
287.82132283464568
20
-27.789578547367924
42
-0.1989123673795502
10
287.76274419088298
20
-27.93099990360523
10
287.50490147840839
20
-28.188842616079818
42
0.19891236737951939
10
287.44632283464568
20
-28.330263972317134
0
CIRCLE
5
105
100
AcDbEntity
8
0
100
AcDbCircle
10
289.94732283464566
20
-29.15992125984252
30
0
40
1.2200000000000033
210
0
220
0
230
1
0
LINE
5
106
100
AcDbEntity
8
0
100
AcDbLine
10
287.44632283464568
20
-29.97242125984252
30
0
11
287.44632283464568
21
-28.34742125984252
31
0
0
CIRCLE
5
107
100
AcDbEntity
8
0
100
AcDbCircle
10
290.44732283464566
20
-27.156496062992115
30
0
40
0.095000000000013102
210
0
220
0
230
1
0
CIRCLE
5
108
100
AcDbEntity
8
0
100
AcDbCircle
10
290.44732283464566
20
-26.156496062992112
30
0
40
0.094999999999998266
210
0
220
0
230
1
0
CIRCLE
5
109
100
AcDbEntity
8
0
100
AcDbCircle
10
289.44732283464566
20
-26.156496062992112
30
0
40
0.094999999999993992
210
0
220
0
230
1
0
CIRCLE
5
110
100
AcDbEntity
8
0
100
AcDbCircle
10
289.44732283464566
20
-27.156496062992115
30
0
40
0.094999999999991147
210
0
220
0
230
1
0
CIRCLE
5
111
100
AcDbEntity
8
0
100
AcDbCircle
10
289.94732283464566
20
-26.656496062992115
30
0
40
0.43749999999999079
210
0
220
0
230
1
0
CIRCLE
5
112
100
AcDbEntity
8
0
100
AcDbCircle
10
288.19632283464568
20
-31.156496062992112
30
0
40
0.15625000000000894
210
0
220
0
230
1
0
CIRCLE
5
113
100
AcDbEntity
8
0
100
AcDbCircle
10
291.17647880865729
20
-31.156496062992112
30
0
40
0.15624999999999614
210
0
220
0
230
1
0
CIRCLE
5
114
100
AcDbEntity
8
0
100
AcDbCircle
10
288.19632283464568
20
-25.593996062992133
30
0
40
0.15625000000000894
210
0
220
0
230
1
0
CIRCLE
5
115
100
AcDbEntity
8
0
100
AcDbCircle
10
291.67647880865729
20
-25.593996062992133
30
0
40
0.15625000000000894
210
0
220
0
230
1
0
ENDSEC
0
SECTION
2
OBJECTS
0
DICTIONARY
5
C
100
AcDbDictionary
3
ACAD_GROUP
350
D
3
ACAD_MLINESTYLE
350
17
0
DICTIONARY
5
D
100
AcDbDictionary
0
DICTIONARY
5
1A
330
C
100
AcDbDictionary
0
DICTIONARY
5
17
100
AcDbDictionary
0
ENDSEC
0
EOF
