0
SECTION
2
HEADER
9
$INSUNITS
70
1
9
$ACADVER
1
AC1014
9
$HANDSEED
5
FFFF
0
ENDSEC
0
SECTION
2
TABLES
0
TABLE
2
VPORT
5
8
100
AcDbSymbolTable
0
ENDTAB
0
TABLE
2
LTYPE
5
5
100
AcDbSymbolTable
0
LTYPE
5
14
100
AcDbSymbolTableRecord
100
AcDbLinetypeTableRecord
2
BYBLOCK
70
0
0
LTYPE
5
15
100
AcDbSymbolTableRecord
100
AcDbLinetypeTableRecord
2
BYLAYER
70
0
0
ENDTAB
0
TABLE
2
LAYER
5
2
100
AcDbSymbolTable
70
2
0
LAYER
5
50
100
AcDbSymbolTableRecord
100
AcDbLayerTableRecord
2
0
70
0
6
CONTINUOUS
0
ENDTAB
0
TABLE
2
STYLE
5
3
100
AcDbSymbolTable
70
1
0
STYLE
5
11
100
AcDbSymbolTableRecord
100
AcDbTextStyleTableRecord
2
STANDARD
70
0
0
ENDTAB
0
TABLE
2
VIEW
5
6
100
AcDbSymbolTable
70
0
0
ENDTAB
0
TABLE
2
UCS
5
7
100
AcDbSymbolTable
70
0
0
ENDTAB
0
TABLE
2
APPID
5
9
100
AcDbSymbolTable
70
2
0
APPID
5
12
100
AcDbSymbolTableRecord
100
AcDbRegAppTableRecord
2
ACAD
70
0
0
ENDTAB
0
TABLE
2
DIMSTYLE
5
A
100
AcDbSymbolTable
70
1
0
ENDTAB
0
TABLE
2
BLOCK_RECORD
5
1
100
AcDbSymbolTable
70
1
0
BLOCK_RECORD
5
1F
100
AcDbSymbolTableRecord
100
AcDbBlockTableRecord
2
*MODEL_SPACE
0
BLOCK_RECORD
5
1B
100
AcDbSymbolTableRecord
100
AcDbBlockTableRecord
2
*PAPER_SPACE
0
ENDTAB
0
ENDSEC
0
SECTION
2
BLOCKS
0
BLOCK
5
20
100
AcDbEntity
100
AcDbBlockBegin
2
*MODEL_SPACE
0
ENDBLK
5
21
100
AcDbEntity
100
AcDbBlockEnd
0
BLOCK
5
1C
100
AcDbEntity
100
AcDbBlockBegin
2
*PAPER_SPACE
0
ENDBLK
5
1D
100
AcDbEntity
100
AcDbBlockEnd
0
ENDSEC
0
SECTION
2
ENTITIES
0
LINE
5
100
100
AcDbEntity
8
0
100
AcDbLine
10
249.41633858267716
20
17.232284774714998
30
0
11
249.41633858267716
21
18.570107609360669
31
0
0
LINE
5
101
100
AcDbEntity
8
0
100
AcDbLine
10
254.16141732283464
20
17.232284774714998
30
0
11
254.16141732283464
21
18.570107609360669
31
0
0
ARC
5
102
100
AcDbEntity
8
0
100
AcDbCircle
10
254.6818812659823
20
17.232284774714998
30
0
40
0.52046394314764821
210
0
220
0
230
1
100
AcDbArc
50
180
51
239.77560837011845
0
LINE
5
103
100
AcDbEntity
8
0
100
AcDbLine
10
254.41988604837402
20
16.782572397670293
30
0
11
255.31783807277756
21
16.150731343332733
31
0
0
LINE
5
104
100
AcDbEntity
8
0
100
AcDbLine
10
255.48765316376947
20
15.823600012419684
30
0
11
255.48765316376947
21
14.484422117750823
31
0
0
LINE
5
105
100
AcDbEntity
8
0
100
AcDbLine
10
255.08474018632327
20
14.616519425806562
30
0
11
255.32181614121566
21
14.409152691944225
31
0
0
LINE
5
106
100
AcDbEntity
8
0
100
AcDbLine
10
254.50222613997414
20
14.920124878462293
30
0
11
255.06472613997414
21
14.630133377814662
31
0
0
LINE
5
107
100
AcDbEntity
8
0
100
AcDbLine
10
253.50787193609725
20
15.129176179110143
30
0
11
254.47662193609725
21
14.929176179110142
31
0
0
LINE
5
108
100
AcDbEntity
8
0
100
AcDbLine
10
251.78307180023376
20
15.326701741930613
30
0
11
253.49900782288555
21
15.130594767913259
31
0
0
LINE
5
109
100
AcDbEntity
8
0
100
AcDbLine
10
249.97629850465336
20
15.13059476791326
30
0
11
251.69223452730515
21
15.326701741930613
31
0
0
LINE
5
110
100
AcDbEntity
8
0
100
AcDbLine
10
249.96743439144169
20
15.129176179110146
30
0
11
248.99868439144177
21
14.92917617911017
31
0
0
LINE
5
111
100
AcDbEntity
8
0
100
AcDbLine
10
248.97307912655126
20
14.920124331458895
30
0
11
248.4105791265512
21
14.63012433145888
31
0
0
LINE
5
112
100
AcDbEntity
8
0
100
AcDbLine
10
248.39056691444125
20
14.616511602775883
30
0
11
248.15348941309767
21
14.409147814933993
31
0
0
LINE
5
113
100
AcDbEntity
8
0
100
AcDbLine
10
247.98765316376947
20
15.817542531341934
30
0
11
247.98765316376947
21
14.484417917062238
31
0
0
LINE
5
114
100
AcDbEntity
8
0
100
AcDbLine
10
248.16528863892563
20
16.150039175070813
30
0
11
249.23020930848816
21
16.862228555474754
31
0
0
ARC
5
115
100
AcDbEntity
8
0
100
AcDbCircle
10
248.99657335351463
20
17.211579113636684
30
0
40
0.42027559046944885
210
0
220
0
230
1
100
AcDbArc
50
-56.226493337353403
51
2.8239266450555021
0
LWPOLYLINE
5
116
100
AcDbEntity
8
0
100
AcDbPolyline
90
4
70
1
43
0.0
10
250.16732283464569
20
17.591655423794414
10
250.16732283464569
20
17.841415442347326
42
-0.99999999999999989
10
250.69881889763778
20
17.841415442347326
10
250.69881889763778
20
17.591655423794414
42
-0.99999999999999989
0
LWPOLYLINE
5
117
100
AcDbEntity
8
0
100
AcDbPolyline
90
4
70
1
43
0.0
10
252.9271653543307
20
17.839173228346461
10
252.9271653543307
20
17.589173228346461
42
-0.99999999999999989
10
252.39566929133861
20
17.589173228346461
10
252.39566929133861
20
17.839173228346461
42
-0.99999999999999989
0
CIRCLE
5
118
100
AcDbEntity
8
0
100
AcDbCircle
10
254.73765316376947
20
15.431991500647616
30
0
40
0.26574803149607645
210
0
220
0
230
1
0
CIRCLE
5
119
100
AcDbEntity
8
0
100
AcDbCircle
10
248.73765316376947
20
15.431991500647616
30
0
40
0.26574803149605741
210
0
220
0
230
1
0
LINE
5
120
100
AcDbEntity
8
0
100
AcDbLine
10
249.61633858267717
20
18.770107609360664
30
0
11
253.96141732283462
21
18.770107609360668
31
0
0
ARC
5
121
100
AcDbEntity
8
0
100
AcDbCircle
10
248.38765316376933
20
15.817542531342003
30
0
40
0.39999999999985286
210
0
220
0
230
1
100
AcDbArc
50
123.77350665804106
51
180
0
ARC
5
122
100
AcDbEntity
8
0
100
AcDbCircle
10
255.08765316376955
20
15.82360001241976
30
0
40
0.39999999999989577
210
-0
220
0
230
1
100
AcDbArc
50
0
51
54.86798814766351
0
ARC
5
123
100
AcDbEntity
8
0
100
AcDbCircle
10
255.38765316376944
20
14.484422117750828
30
0
40
0.10000000000000767
210
0
220
0
230
1
100
AcDbArc
50
228.82430493985612
51
360
0
ARC
5
124
100
AcDbEntity
8
0
100
AcDbCircle
10
248.08765316376949
20
14.484417917062249
30
0
40
0.10000000000000751
210
0
220
0
230
1
100
AcDbArc
50
180
51
311.1751064763551
0
ARC
5
125
100
AcDbEntity
8
0
100
AcDbCircle
10
248.45640316376878
20
14.541241500648601
30
0
40
0.099999999998832231
210
0
220
-0
230
1
100
AcDbArc
50
117.27362009910395
51
131.17510647644039
0
ARC
5
126
100
AcDbEntity
8
0
100
AcDbCircle
10
249.01890316376921
20
14.831241500648481
30
0
40
0.099999999999115616
210
0
220
-0
230
1
100
AcDbArc
50
101.66492036971547
51
117.27362009925666
0
ARC
5
127
100
AcDbEntity
8
0
100
AcDbCircle
10
249.98765316377035
20
15.031241500642247
30
0
40
0.10000000000544076
210
0
220
-0
230
1
100
AcDbArc
50
96.51980175182895
51
101.66492036968184
0
ARC
5
128
100
AcDbEntity
8
0
100
AcDbCircle
10
251.73765316376947
20
14.929288672867692
30
0
40
0.40000000000035868
210
0
220
-0
230
1
100
AcDbArc
50
83.48019824834914
51
96.51980175165491
0
ARC
5
129
100
AcDbEntity
8
0
100
AcDbCircle
10
253.48765316376904
20
15.031241500644949
30
0
40
0.10000000000270223
210
0
220
-0
230
1
100
AcDbArc
50
78.335079630259912
51
83.480198248270199
0
ARC
5
130
100
AcDbEntity
8
0
100
AcDbCircle
10
254.45640316376955
20
14.831241500647883
30
0
40
0.099999999999728292
210
0
220
-0
230
1
100
AcDbArc
50
62.727063850792774
51
78.335079630207034
0
ARC
5
131
100
AcDbEntity
8
0
100
AcDbCircle
10
255.01890316376898
20
14.541249999999154
30
0
40
0.1000000000009677
210
0
220
-0
230
1
100
AcDbArc
50
48.824304939939033
51
62.727063850791517
0
ARC
5
132
100
AcDbEntity
8
0
100
AcDbCircle
10
253.96141732283459
20
18.570107609360605
30
0
40
0.20000000000005977
210
0
220
-0
230
1
100
AcDbArc
50
0
51
89.999999999991857
0
ARC
5
133
100
AcDbEntity
8
0
100
AcDbCircle
10
249.61633858267723
20
18.570107609360605
30
0
40
0.20000000000005977
210
0
220
-0
230
1
100
AcDbArc
50
90.000000000016286
51
180
0
ENDSEC
0
SECTION
2
OBJECTS
0
DICTIONARY
5
C
100
AcDbDictionary
3
ACAD_GROUP
350
D
3
ACAD_MLINESTYLE
350
17
0
DICTIONARY
5
D
100
AcDbDictionary
0
DICTIONARY
5
1A
330
C
100
AcDbDictionary
0
DICTIONARY
5
17
100
AcDbDictionary
0
ENDSEC
0
EOF
